  0
SECTION
  2
HEADER
  9
$ACADVER
  1
AC1015
  9
$ACADMAINTVER
 70
     6
  9
$DWGCODEPAGE
  3
ANSI_1254
  9
$INSBASE
 10
0.0
 20
0.0
 30
0.0
  9
$EXTMIN
 10
0.0
 20
0.0
 30
0.0
  9
$EXTMAX
 10
279.4
 20
215.9
 30
0.0
  9
$LIMMIN
 10
0.0
 20
0.0
  9
$LIMMAX
 10
279.4
 20
215.9
  9
$ORTHOMODE
 70
     0
  9
$REGENMODE
 70
     1
  9
$FILLMODE
 70
     1
  9
$QTEXTMODE
 70
     0
  9
$MIRRTEXT
 70
     1
  9
$LTSCALE
 40
1.0
  9
$ATTMODE
 70
     1
  9
$TEXTSIZE
 40
3.5
  9
$TRACEWID
 40
1.0
  9
$TEXTSTYLE
  7
Standard
  9
$CLAYER
  8
0
  9
$CELTYPE
  6
ByLayer
  9
$CECOLOR
 62
   256
  9
$CELTSCALE
 40
1.0
  9
$DISPSILH
 70
     0
  9
$DIMSCALE
 40
1.0
  9
$DIMASZ
 40
3.5
  9
$DIMEXO
 40
1.0
  9
$DIMDLI
 40
3.75
  9
$DIMRND
 40
0.0
  9
$DIMDLE
 40
0.0
  9
$DIMEXE
 40
1.0
  9
$DIMTP
 40
0.0
  9
$DIMTM
 40
0.0
  9
$DIMTXT
 40
3.5
  9
$DIMCEN
 40
2.5
  9
$DIMTSZ
 40
0.0
  9
$DIMTOL
 70
     0
  9
$DIMLIM
 70
     0
  9
$DIMTIH
 70
     1
  9
$DIMTOH
 70
     1
  9
$DIMSE1
 70
     0
  9
$DIMSE2
 70
     0
  9
$DIMTAD
 70
     1
  9
$DIMZIN
 70
     0
  9
$DIMBLK
  1

  9
$DIMASO
 70
     1
  9
$DIMSHO
 70
     1
  9
$DIMPOST
  1

  9
$DIMAPOST
  1

  9
$DIMALT
 70
     0
  9
$DIMALTD
 70
     3
  9
$DIMALTF
 40
0.0393700787
  9
$DIMLFAC
 40
1.0
  9
$DIMTOFL
 70
     1
  9
$DIMTVP
 40
0.0
  9
$DIMTIX
 70
     0
  9
$DIMSOXD
 70
     0
  9
$DIMSAH
 70
     0
  9
$DIMBLK1
  1

  9
$DIMBLK2
  1

  9
$DIMSTYLE
  2
ISO-25
  9
$DIMCLRD
 70
     0
  9
$DIMCLRE
 70
     0
  9
$DIMCLRT
 70
     0
  9
$DIMTFAC
 40
1.0
  9
$DIMGAP
 40
1.524
  9
$DIMJUST
 70
     0
  9
$DIMSD1
 70
     0
  9
$DIMSD2
 70
     0
  9
$DIMTOLJ
 70
     0
  9
$DIMTZIN
 70
     0
  9
$DIMALTZ
 70
     0
  9
$DIMALTTZ
 70
     0
  9
$DIMUPT
 70
     0
  9
$DIMDEC
 70
     2
  9
$DIMTDEC
 70
     2
  9
$DIMALTU
 70
     2
  9
$DIMALTTD
 70
     3
  9
$DIMTXSTY
  7
Standard
  9
$DIMAUNIT
 70
     0
  9
$DIMADEC
 70
     2
  9
$DIMALTRND
 40
0.0
  9
$DIMAZIN
 70
     0
  9
$DIMDSEP
 70
    44
  9
$DIMATFIT
 70
     3
  9
$DIMFRAC
 70
     0
  9
$DIMLDRBLK
  1

  9
$DIMLUNIT
 70
     2
  9
$DIMLWD
 70
    -2
  9
$DIMLWE
 70
    -2
  9
$DIMTMOVE
 70
     0
  9
$LUNITS
 70
     2
  9
$LUPREC
 70
     2
  9
$SKETCHINC
 40
1.0
  9
$FILLETRAD
 40
10.0
  9
$AUNITS
 70
     0
  9
$AUPREC
 70
     2
  9
$MENU
  1
.
  9
$ELEVATION
 40
0.0
  9
$PELEVATION
 40
0.0
  9
$THICKNESS
 40
0.0
  9
$LIMCHECK
 70
     0
  9
$CHAMFERA
 40
0.0
  9
$CHAMFERB
 40
0.0
  9
$CHAMFERC
 40
0.0
  9
$CHAMFERD
 40
0.0
  9
$SKPOLY
 70
     0
  9
$TDCREATE
 40
2459935.699807419
  9
$TDUCREATE
 40
2459935.574807419
  9
$TDUPDATE
 40
2459935.699807604
  9
$TDUUPDATE
 40
2459935.574807604
  9
$TDINDWG
 40
0.0000000116
  9
$TDUSRTIMER
 40
0.0000000116
  9
$USRTIMER
 70
     1
  9
$ANGBASE
 50
0.0
  9
$ANGDIR
 70
     0
  9
$PDMODE
 70
     0
  9
$PDSIZE
 40
-1.0
  9
$PLINEWID
 40
0.0
  9
$SPLFRAME
 70
     0
  9
$SPLINETYPE
 70
     6
  9
$SPLINESEGS
 70
     8
  9
$HANDSEED
  5
ED
  9
$SURFTAB1
 70
     6
  9
$SURFTAB2
 70
     6
  9
$SURFTYPE
 70
     6
  9
$SURFU
 70
     6
  9
$SURFV
 70
     6
  9
$UCSBASE
  2

  9
$UCSNAME
  2

  9
$UCSORG
 10
0.0
 20
0.0
 30
0.0
  9
$UCSXDIR
 10
1.0
 20
0.0
 30
0.0
  9
$UCSYDIR
 10
0.0
 20
1.0
 30
0.0
  9
$UCSORTHOREF
  2

  9
$UCSORTHOVIEW
 70
     0
  9
$UCSORGTOP
 10
0.0
 20
0.0
 30
0.0
  9
$UCSORGBOTTOM
 10
0.0
 20
0.0
 30
0.0
  9
$UCSORGLEFT
 10
0.0
 20
0.0
 30
0.0
  9
$UCSORGRIGHT
 10
0.0
 20
0.0
 30
0.0
  9
$UCSORGFRONT
 10
0.0
 20
0.0
 30
0.0
  9
$UCSORGBACK
 10
0.0
 20
0.0
 30
0.0
  9
$PUCSBASE
  2

  9
$PUCSNAME
  2

  9
$PUCSORG
 10
0.0
 20
0.0
 30
0.0
  9
$PUCSXDIR
 10
1.0
 20
0.0
 30
0.0
  9
$PUCSYDIR
 10
0.0
 20
1.0
 30
0.0
  9
$PUCSORTHOREF
  2

  9
$PUCSORTHOVIEW
 70
     0
  9
$PUCSORGTOP
 10
0.0
 20
0.0
 30
0.0
  9
$PUCSORGBOTTOM
 10
0.0
 20
0.0
 30
0.0
  9
$PUCSORGLEFT
 10
0.0
 20
0.0
 30
0.0
  9
$PUCSORGRIGHT
 10
0.0
 20
0.0
 30
0.0
  9
$PUCSORGFRONT
 10
0.0
 20
0.0
 30
0.0
  9
$PUCSORGBACK
 10
0.0
 20
0.0
 30
0.0
  9
$USERI1
 70
     0
  9
$USERI2
 70
     0
  9
$USERI3
 70
     0
  9
$USERI4
 70
     0
  9
$USERI5
 70
     0
  9
$USERR1
 40
0.0
  9
$USERR2
 40
0.0
  9
$USERR3
 40
0.0
  9
$USERR4
 40
0.0
  9
$USERR5
 40
0.0
  9
$WORLDVIEW
 70
     1
  9
$SHADEDGE
 70
     3
  9
$SHADEDIF
 70
    70
  9
$TILEMODE
 70
     1
  9
$MAXACTVP
 70
    64
  9
$PINSBASE
 10
0.0
 20
0.0
 30
0.0
  9
$PLIMCHECK
 70
     0
  9
$PEXTMIN
 10
1.0000000000E+20
 20
1.0000000000E+20
 30
1.0000000000E+20
  9
$PEXTMAX
 10
-1.0000000000E+20
 20
-1.0000000000E+20
 30
-1.0000000000E+20
  9
$PLIMMIN
 10
0.0
 20
0.0
  9
$PLIMMAX
 10
420.0
 20
297.0
  9
$UNITMODE
 70
     0
  9
$VISRETAIN
 70
     1
  9
$PLINEGEN
 70
     0
  9
$PSLTSCALE
 70
     1
  9
$TREEDEPTH
 70
  3020
  9
$CMLSTYLE
  2
Standard
  9
$CMLJUST
 70
     0
  9
$CMLSCALE
 40
20.0
  9
$PROXYGRAPHICS
 70
     1
  9
$MEASUREMENT
 70
     1
  9
$CELWEIGHT
370
    -1
  9
$ENDCAPS
280
     0
  9
$JOINSTYLE
280
     0
  9
$LWDISPLAY
290
     1
  9
$INSUNITS
 70
     4
  9
$HYPERLINKBASE
  1

  9
$STYLESHEET
  1

  9
$XEDIT
290
     1
  9
$CEPSNTYPE
380
     0
  9
$PSTYLEMODE
290
     1
  9
$FINGERPRINTGUID
  2
{2a5691d7-dbbb-463f-bbde-8d7cef341210}
  9
$VERSIONGUID
  2
{FAEB1C32-E019-11D5-929B-00C0DF256EC4}
  9
$EXTNAMES
290
     1
  9
$PSVPSCALE
 40
0.0
  9
$OLESTARTUP
290
     0
  0
ENDSEC
  0
SECTION
  2
CLASSES
  0
CLASS
  1
ACDBDICTIONARYWDFLT
  2
AcDbDictionaryWithDefault
  3
ObjectDBX Classes
 90
        0
280
     0
281
     0
  0
CLASS
  1
VISUALSTYLE
  2
AcDbVisualStyle
  3
ObjectDBX Classes
 90
     4095
280
     0
281
     0
  0
CLASS
  1
MATERIAL
  2
AcDbMaterial
  3
ObjectDBX Classes
 90
     1153
280
     0
281
     0
  0
CLASS
  1
SCALE
  2
AcDbScale
  3
ObjectDBX Classes
 90
     1153
280
     0
281
     0
  0
CLASS
  1
TABLESTYLE
  2
AcDbTableStyle
  3
ObjectDBX Classes
 90
     4095
280
     0
281
     0
  0
CLASS
  1
MLEADERSTYLE
  2
AcDbMLeaderStyle
  3
ACDB_MLEADERSTYLE_CLASS
 90
     4095
280
     0
281
     0
  0
CLASS
  1
SUN
  2
AcDbSun
  3
SCENEOE
 90
     1153
280
     0
281
     0
  0
CLASS
  1
ACDBPLACEHOLDER
  2
AcDbPlaceHolder
  3
ObjectDBX Classes
 90
        0
280
     0
281
     0
  0
CLASS
  1
LAYOUT
  2
AcDbLayout
  3
ObjectDBX Classes
 90
        0
280
     0
281
     0
  0
ENDSEC
  0
SECTION
  2
TABLES
  0
TABLE
  2
VPORT
  5
8
330
0
100
AcDbSymbolTable
 70
     1
  0
VPORT
  5
29
330
8
100
AcDbSymbolTableRecord
100
AcDbViewportTableRecord
  2
*Active
 70
     0
 10
0.0
 20
0.0
 11
1.0
 21
1.0
 12
139.7
 22
107.95
 13
0.0
 23
0.0
 14
10.0
 24
10.0
 15
10.0
 25
10.0
 16
0.0
 26
0.0
 36
1.0
 17
0.0
 27
0.0
 37
0.0
 40
215.9
 41
1.2941176471
 42
50.0
 43
0.0
 44
0.0
 50
0.0
 51
0.0
 71
     0
 72
  2000
 73
     1
 74
     3
 75
     0
 76
     0
 77
     0
 78
     0
281
     0
 65
     1
110
0.0
120
0.0
130
0.0
111
1.0
121
0.0
131
0.0
112
0.0
122
1.0
132
0.0
 79
     0
146
0.0
  0
ENDTAB
  0
TABLE
  2
LTYPE
  5
5
330
0
100
AcDbSymbolTable
 70
     6
  0
LTYPE
  5
14
330
5
100
AcDbSymbolTableRecord
100
AcDbLinetypeTableRecord
  2
ByBlock
 70
     0
  3

 72
    65
 73
     0
 40
0.0
  0
LTYPE
  5
15
330
5
100
AcDbSymbolTableRecord
100
AcDbLinetypeTableRecord
  2
ByLayer
 70
     0
  3

 72
    65
 73
     0
 40
0.0
  0
LTYPE
  5
16
330
5
100
AcDbSymbolTableRecord
100
AcDbLinetypeTableRecord
  2
Continuous
 70
     0
  3
Solid line
 72
    65
 73
     0
 40
0.0
  0
LTYPE
  5
6E
330
5
100
AcDbSymbolTableRecord
100
AcDbLinetypeTableRecord
  2
HIDDEN
 70
     0
  3
Hidden __ __ __ __ __ __ __ __ __ __ __ __ __ __
 72
    65
 73
     2
 40
1.905
 49
1.27
 74
     0
 49
-0.635
 74
     0
  0
LTYPE
  5
6F
330
5
100
AcDbSymbolTableRecord
100
AcDbLinetypeTableRecord
  2
PHANTOM
 70
     0
  3
Phantom ______  __  __  ______  __  __  ______
 72
    65
 73
     6
 40
12.7
 49
6.35
 74
     0
 49
-1.27
 74
     0
 49
1.27
 74
     0
 49
-1.27
 74
     0
 49
1.27
 74
     0
 49
-1.27
 74
     0
  0
LTYPE
  5
70
330
5
100
AcDbSymbolTableRecord
100
AcDbLinetypeTableRecord
  2
CENTER
 70
     0
  3
Center ____ _ ____ _ ____ _ ____ _ ____ _ ____
 72
    65
 73
     4
 40
10.16
 49
6.35
 74
     0
 49
-1.27
 74
     0
 49
1.27
 74
     0
 49
-1.27
 74
     0
  0
LTYPE
  5
71
330
5
100
AcDbSymbolTableRecord
100
AcDbLinetypeTableRecord
  2
CENTERX2
 70
     0
  3
Center (2x) ________  __  ________  __  _____
 72
    65
 73
     4
 40
20.32
 49
12.7
 74
     0
 49
-2.54
 74
     0
 49
2.54
 74
     0
 49
-2.54
 74
     0
  0
LTYPE
  5
72
330
5
100
AcDbSymbolTableRecord
100
AcDbLinetypeTableRecord
  2
DOT2
 70
     0
  3
Dot (.5x) ........................................
 72
    65
 73
     2
 40
0.635
 49
0.0
 74
     0
 49
-0.635
 74
     0
  0
ENDTAB
  0
TABLE
  2
LAYER
  5
2
330
0
100
AcDbSymbolTable
 70
    17
  0
LAYER
  5
10
330
2
100
AcDbSymbolTableRecord
100
AcDbLayerTableRecord
  2
0
 70
     0
 62
     7
  6
Continuous
370
    -3
390
F
  0
LAYER
  5
73
330
2
100
AcDbSymbolTableRecord
100
AcDbLayerTableRecord
  2
FORMAT
 70
     0
 62
     7
  6
Continuous
370
    -3
390
F
  0
LAYER
  5
74
330
2
100
AcDbSymbolTableRecord
100
AcDbLayerTableRecord
  2
YARDIMCI_GEOMETRI
 70
     0
 62
    -6
  6
Continuous
290
     0
370
    -3
390
F
  0
LAYER
  5
75
330
2
100
AcDbSymbolTableRecord
100
AcDbLayerTableRecord
  2
SAYFA_CERCEVESI
 70
     0
 62
     7
  6
Continuous
370
    25
390
F
  0
LAYER
  5
76
330
2
100
AcDbSymbolTableRecord
100
AcDbLayerTableRecord
  2
ANTET
 70
     0
 62
     7
  6
Continuous
370
    -3
390
F
  0
LAYER
  5
77
330
2
100
AcDbSymbolTableRecord
100
AcDbLayerTableRecord
  2
OLCU
 70
     0
 62
   150
  6
Continuous
370
    -3
390
F
  0
LAYER
  5
78
330
2
100
AcDbSymbolTableRecord
100
AcDbLayerTableRecord
  2
METIN
 70
     0
 62
    96
  6
Continuous
370
    -3
390
F
  0
LAYER
  5
79
330
2
100
AcDbSymbolTableRecord
100
AcDbLayerTableRecord
  2
BALON
 70
     0
 62
     5
  6
Continuous
370
    -3
390
F
  0
LAYER
  5
7A
330
2
100
AcDbSymbolTableRecord
100
AcDbLayerTableRecord
  2
VURGU
 70
     0
 62
     7
  6
Continuous
370
    -3
390
F
  0
LAYER
  5
7B
330
2
100
AcDbSymbolTableRecord
100
AcDbLayerTableRecord
  2
SILIK
 70
     0
 62
     7
  6
Continuous
370
    -3
390
F
  0
LAYER
  5
7C
330
2
100
AcDbSymbolTableRecord
100
AcDbLayerTableRecord
  2
MODEL
 70
     0
 62
     7
  6
Continuous
370
    -3
390
F
  0
LAYER
  5
7D
330
2
100
AcDbSymbolTableRecord
100
AcDbLayerTableRecord
  2
DETAYLANDıRMA
 70
     0
 62
   190
  6
Continuous
370
    -3
390
F
  0
LAYER
  5
7E
330
2
100
AcDbSymbolTableRecord
100
AcDbLayerTableRecord
  2
TOLERANS
 70
     0
 62
   230
  6
Continuous
370
    -3
390
F
  0
LAYER
  5
7F
330
2
100
AcDbSymbolTableRecord
100
AcDbLayerTableRecord
  2
MERKEZ_CIZGILERI
 70
     0
 62
    30
  6
Continuous
370
    -3
390
F
  0
LAYER
  5
80
330
2
100
AcDbSymbolTableRecord
100
AcDbLayerTableRecord
  2
KESIT-DETAY_CIZGILERI
 70
     0
 62
     7
  6
Continuous
370
    -3
390
F
  0
LAYER
  5
81
330
2
100
AcDbSymbolTableRecord
100
AcDbLayerTableRecord
  2
\U+041E\U+0421\U+0415\U+0412\U+042B\U+0415
 70
     0
 62
     7
  6
Continuous
370
    -3
390
F
  0
LAYER
  5
82
330
2
100
AcDbSymbolTableRecord
100
AcDbLayerTableRecord
  2
\U+0412\U+041E\U+0414\U+042F\U+041D\U+042B\U+0415_\U+0417\U+041D\U+0410\U+041A\U+0418
 70
     0
 62
    11
  6
Continuous
370
    -3
390
F
  0
ENDTAB
  0
TABLE
  2
STYLE
  5
3
330
0
100
AcDbSymbolTable
 70
     1
  0
STYLE
  5
11
330
3
100
AcDbSymbolTableRecord
100
AcDbTextStyleTableRecord
  2
Standard
 70
     0
 40
0.0
 41
1.0
 50
0.0
 71
     0
 42
3.5
  3
txt
  4

  0
ENDTAB
  0
TABLE
  2
VIEW
  5
6
330
0
100
AcDbSymbolTable
 70
     0
  0
ENDTAB
  0
TABLE
  2
UCS
  5
7
330
0
100
AcDbSymbolTable
 70
     0
  0
ENDTAB
  0
TABLE
  2
APPID
  5
9
330
0
100
AcDbSymbolTable
 70
     1
  0
APPID
  5
12
330
9
100
AcDbSymbolTableRecord
100
AcDbRegAppTableRecord
  2
ACAD
 70
     0
  0
ENDTAB
  0
TABLE
  2
DIMSTYLE
  5
A
330
0
100
AcDbSymbolTable
 70
     1
100
AcDbDimStyleTable
  0
DIMSTYLE
105
27
330
A
100
AcDbSymbolTableRecord
100
AcDbDimStyleTableRecord
  2
ISO-25
 70
     0
 41
2.5
 42
0.625
 43
3.75
 44
1.25
 73
     0
 74
     0
 77
     1
 78
     8
140
2.5
141
2.5
143
0.0393700787
147
0.625
171
     3
172
     1
178
     0
271
     2
272
     2
274
     3
278
    44
283
     0
284
     8
340
11
  0
ENDTAB
  0
TABLE
  2
BLOCK_RECORD
  5
1
330
0
100
AcDbSymbolTable
 70
     5
  0
BLOCK_RECORD
  5
1F
330
1
100
AcDbSymbolTableRecord
100
AcDbBlockTableRecord
  2
*Model_Space
340
22
  0
BLOCK_RECORD
  5
1B
330
1
100
AcDbSymbolTableRecord
100
AcDbBlockTableRecord
  2
*Paper_Space
340
1E
  0
BLOCK_RECORD
  5
23
330
1
100
AcDbSymbolTableRecord
100
AcDbBlockTableRecord
  2
*Paper_Space0
340
26
  0
BLOCK_RECORD
  5
97
330
1
100
AcDbSymbolTableRecord
100
AcDbBlockTableRecord
  2
SW_CENTERMARKSYMBOL_0
340
0
102
{BLKREFS
331
A2
102
}
  0
BLOCK_RECORD
  5
AC
330
1
100
AcDbSymbolTableRecord
100
AcDbBlockTableRecord
  2
SW_CENTERMARKSYMBOL_1
340
0
102
{BLKREFS
331
B7
102
}
  0
BLOCK_RECORD
  5
BF
330
1
100
AcDbSymbolTableRecord
100
AcDbBlockTableRecord
  2
SW_CENTERMARKSYMBOL_2
340
0
102
{BLKREFS
331
CA
102
}
  0
BLOCK_RECORD
  5
D2
330
1
100
AcDbSymbolTableRecord
100
AcDbBlockTableRecord
  2
SW_CENTERMARKSYMBOL_3
340
0
102
{BLKREFS
331
DD
102
}
  0
ENDTAB
  0
ENDSEC
  0
SECTION
  2
BLOCKS
  0
BLOCK
  5
20
330
1F
100
AcDbEntity
  8
0
100
AcDbBlockBegin
  2
*Model_Space
 70
     0
 10
0.0
 20
0.0
 30
0.0
  3
*Model_Space
  1

  0
ENDBLK
  5
21
330
1F
100
AcDbEntity
  8
0
100
AcDbBlockEnd
  0
BLOCK
  5
1C
330
1B
100
AcDbEntity
 67
     1
  8
0
100
AcDbBlockBegin
  2
*Paper_Space
 70
     0
 10
0.0
 20
0.0
 30
0.0
  3
*Paper_Space
  1

  0
ENDBLK
  5
1D
330
1B
100
AcDbEntity
 67
     1
  8
0
100
AcDbBlockEnd
  0
BLOCK
  5
24
330
23
100
AcDbEntity
  8
0
100
AcDbBlockBegin
  2
*Paper_Space0
 70
     0
 10
0.0
 20
0.0
 30
0.0
  3
*Paper_Space0
  1

  0
ENDBLK
  5
25
330
23
100
AcDbEntity
  8
0
100
AcDbBlockEnd
  0
BLOCK
  5
98
330
97
100
AcDbEntity
  8
0
100
AcDbBlockBegin
  2
SW_CENTERMARKSYMBOL_0
 70
     0
 10
0.0
 20
0.0
 30
0.0
  3
SW_CENTERMARKSYMBOL_0
  1

  0
LINE
  5
9A
330
97
100
AcDbEntity
  8
FORMAT
 62
     0
100
AcDbLine
 10
0.0
 20
0.0
 30
0.0
 11
0.0
 21
2.5
 31
0.0
  0
LINE
  5
9B
330
97
100
AcDbEntity
  8
FORMAT
 62
     0
100
AcDbLine
 10
0.0
 20
0.0
 30
0.0
 11
-2.5
 21
0.0
 31
0.0
  0
LINE
  5
9C
330
97
100
AcDbEntity
  8
FORMAT
 62
     0
100
AcDbLine
 10
0.0
 20
0.0
 30
0.0
 11
0.0
 21
-2.5
 31
0.0
  0
LINE
  5
9D
330
97
100
AcDbEntity
  8
FORMAT
 62
     0
100
AcDbLine
 10
0.0
 20
0.0
 30
0.0
 11
2.5
 21
0.0
 31
0.0
  0
LINE
  5
9E
330
97
100
AcDbEntity
  8
FORMAT
 62
     0
100
AcDbLine
 10
0.0
 20
5.0
 30
0.0
 11
0.0
 21
34.0
 31
0.0
  0
LINE
  5
9F
330
97
100
AcDbEntity
  8
FORMAT
 62
     0
100
AcDbLine
 10
-5.0
 20
0.0
 30
0.0
 11
-34.0
 21
0.0
 31
0.0
  0
LINE
  5
A0
330
97
100
AcDbEntity
  8
FORMAT
 62
     0
100
AcDbLine
 10
0.0
 20
-5.0
 30
0.0
 11
0.0
 21
-34.0
 31
0.0
  0
LINE
  5
A1
330
97
100
AcDbEntity
  8
FORMAT
 62
     0
100
AcDbLine
 10
5.0
 20
0.0
 30
0.0
 11
34.0
 21
0.0
 31
0.0
  0
ENDBLK
  5
99
330
97
100
AcDbEntity
  8
0
100
AcDbBlockEnd
  0
BLOCK
  5
AD
330
AC
100
AcDbEntity
  8
0
100
AcDbBlockBegin
  2
SW_CENTERMARKSYMBOL_1
 70
     0
 10
0.0
 20
0.0
 30
0.0
  3
SW_CENTERMARKSYMBOL_1
  1

  0
LINE
  5
AF
330
AC
100
AcDbEntity
  8
FORMAT
 62
     0
100
AcDbLine
 10
0.0
 20
0.0
 30
0.0
 11
0.0
 21
2.5
 31
0.0
  0
LINE
  5
B0
330
AC
100
AcDbEntity
  8
FORMAT
 62
     0
100
AcDbLine
 10
0.0
 20
0.0
 30
0.0
 11
-2.5
 21
0.0
 31
0.0
  0
LINE
  5
B1
330
AC
100
AcDbEntity
  8
FORMAT
 62
     0
100
AcDbLine
 10
0.0
 20
0.0
 30
0.0
 11
0.0
 21
-2.5
 31
0.0
  0
LINE
  5
B2
330
AC
100
AcDbEntity
  8
FORMAT
 62
     0
100
AcDbLine
 10
0.0
 20
0.0
 30
0.0
 11
2.5
 21
0.0
 31
0.0
  0
LINE
  5
B3
330
AC
100
AcDbEntity
  8
FORMAT
 62
     0
100
AcDbLine
 10
0.0
 20
5.0
 30
0.0
 11
0.0
 21
34.0
 31
0.0
  0
LINE
  5
B4
330
AC
100
AcDbEntity
  8
FORMAT
 62
     0
100
AcDbLine
 10
-5.0
 20
0.0
 30
0.0
 11
-34.0
 21
0.0
 31
0.0
  0
LINE
  5
B5
330
AC
100
AcDbEntity
  8
FORMAT
 62
     0
100
AcDbLine
 10
0.0
 20
-5.0
 30
0.0
 11
0.0
 21
-34.0
 31
0.0
  0
LINE
  5
B6
330
AC
100
AcDbEntity
  8
FORMAT
 62
     0
100
AcDbLine
 10
5.0
 20
0.0
 30
0.0
 11
34.0
 21
0.0
 31
0.0
  0
ENDBLK
  5
AE
330
AC
100
AcDbEntity
  8
0
100
AcDbBlockEnd
  0
BLOCK
  5
C0
330
BF
100
AcDbEntity
  8
0
100
AcDbBlockBegin
  2
SW_CENTERMARKSYMBOL_2
 70
     0
 10
0.0
 20
0.0
 30
0.0
  3
SW_CENTERMARKSYMBOL_2
  1

  0
LINE
  5
C2
330
BF
100
AcDbEntity
  8
FORMAT
 62
     0
100
AcDbLine
 10
0.0
 20
0.0
 30
0.0
 11
0.0
 21
2.5
 31
0.0
  0
LINE
  5
C3
330
BF
100
AcDbEntity
  8
FORMAT
 62
     0
100
AcDbLine
 10
0.0
 20
0.0
 30
0.0
 11
-2.5
 21
0.0
 31
0.0
  0
LINE
  5
C4
330
BF
100
AcDbEntity
  8
FORMAT
 62
     0
100
AcDbLine
 10
0.0
 20
0.0
 30
0.0
 11
0.0
 21
-2.5
 31
0.0
  0
LINE
  5
C5
330
BF
100
AcDbEntity
  8
FORMAT
 62
     0
100
AcDbLine
 10
0.0
 20
0.0
 30
0.0
 11
2.5
 21
0.0
 31
0.0
  0
LINE
  5
C6
330
BF
100
AcDbEntity
  8
FORMAT
 62
     0
100
AcDbLine
 10
0.0
 20
5.0
 30
0.0
 11
0.0
 21
34.0
 31
0.0
  0
LINE
  5
C7
330
BF
100
AcDbEntity
  8
FORMAT
 62
     0
100
AcDbLine
 10
-5.0
 20
0.0
 30
0.0
 11
-34.0
 21
0.0
 31
0.0
  0
LINE
  5
C8
330
BF
100
AcDbEntity
  8
FORMAT
 62
     0
100
AcDbLine
 10
0.0
 20
-5.0
 30
0.0
 11
0.0
 21
-34.0
 31
0.0
  0
LINE
  5
C9
330
BF
100
AcDbEntity
  8
FORMAT
 62
     0
100
AcDbLine
 10
5.0
 20
0.0
 30
0.0
 11
34.0
 21
0.0
 31
0.0
  0
ENDBLK
  5
C1
330
BF
100
AcDbEntity
  8
0
100
AcDbBlockEnd
  0
BLOCK
  5
D3
330
D2
100
AcDbEntity
  8
0
100
AcDbBlockBegin
  2
SW_CENTERMARKSYMBOL_3
 70
     0
 10
0.0
 20
0.0
 30
0.0
  3
SW_CENTERMARKSYMBOL_3
  1

  0
LINE
  5
D5
330
D2
100
AcDbEntity
  8
FORMAT
 62
     0
100
AcDbLine
 10
0.0
 20
0.0
 30
0.0
 11
0.0
 21
2.5
 31
0.0
  0
LINE
  5
D6
330
D2
100
AcDbEntity
  8
FORMAT
 62
     0
100
AcDbLine
 10
0.0
 20
0.0
 30
0.0
 11
-2.5
 21
0.0
 31
0.0
  0
LINE
  5
D7
330
D2
100
AcDbEntity
  8
FORMAT
 62
     0
100
AcDbLine
 10
0.0
 20
0.0
 30
0.0
 11
0.0
 21
-2.5
 31
0.0
  0
LINE
  5
D8
330
D2
100
AcDbEntity
  8
FORMAT
 62
     0
100
AcDbLine
 10
0.0
 20
0.0
 30
0.0
 11
2.5
 21
0.0
 31
0.0
  0
LINE
  5
D9
330
D2
100
AcDbEntity
  8
FORMAT
 62
     0
100
AcDbLine
 10
0.0
 20
5.0
 30
0.0
 11
0.0
 21
34.0
 31
0.0
  0
LINE
  5
DA
330
D2
100
AcDbEntity
  8
FORMAT
 62
     0
100
AcDbLine
 10
-5.0
 20
0.0
 30
0.0
 11
-34.0
 21
0.0
 31
0.0
  0
LINE
  5
DB
330
D2
100
AcDbEntity
  8
FORMAT
 62
     0
100
AcDbLine
 10
0.0
 20
-5.0
 30
0.0
 11
0.0
 21
-34.0
 31
0.0
  0
LINE
  5
DC
330
D2
100
AcDbEntity
  8
FORMAT
 62
     0
100
AcDbLine
 10
5.0
 20
0.0
 30
0.0
 11
34.0
 21
0.0
 31
0.0
  0
ENDBLK
  5
D4
330
D2
100
AcDbEntity
  8
0
100
AcDbBlockEnd
  0
ENDSEC
  0
SECTION
  2
ENTITIES
  0
LINE
  5
83
330
1F
100
AcDbEntity
  8
0
  6
Continuous
 62
     7
370
    25
100
AcDbLine
 10
67.3996986035
 20
117.5834397602
 30
0.0
 11
67.3996986035
 21
38.0834397602
 31
0.0
  0
LINE
  5
84
330
1F
100
AcDbEntity
  8
0
  6
Continuous
 62
     7
370
    25
100
AcDbLine
 10
130.3996986035
 20
38.0834397602
 30
0.0
 11
130.3996986035
 21
117.5834397602
 31
0.0
  0
ARC
  5
85
330
1F
100
AcDbEntity
  8
0
  6
Continuous
 62
     7
370
    25
100
AcDbCircle
 10
130.3996986035
 20
117.5834397602
 30
0.0
 40
63.00000000000001
100
AcDbArc
 50
90.0
 51
180.0
  0
LINE
  5
86
330
1F
100
AcDbEntity
  8
0
  6
Continuous
 62
     7
370
    25
100
AcDbLine
 10
209.8996986035
 20
180.5834397602
 30
0.0
 11
130.3996986035
 21
180.5834397602
 31
0.0
  0
LINE
  5
87
330
1F
100
AcDbEntity
  8
0
  6
Continuous
 62
     7
370
    25
100
AcDbLine
 10
130.3996986035
 20
117.5834397602
 30
0.0
 11
209.8996986035
 21
117.5834397602
 31
0.0
  0
LINE
  5
88
330
1F
100
AcDbEntity
  8
0
  6
Continuous
 62
     7
370
    25
100
AcDbLine
 10
98.8996986035
 20
38.0834397602
 30
0.0
 11
130.3996986035
 21
38.0834397602
 31
0.0
  0
LINE
  5
89
330
1F
100
AcDbEntity
  8
0
  6
Continuous
 62
     7
370
    25
100
AcDbLine
 10
67.3996986035
 20
38.0834397602
 30
0.0
 11
98.8996986035
 21
38.0834397602
 31
0.0
  0
LINE
  5
8A
330
1F
100
AcDbEntity
  8
0
  6
Continuous
 62
     7
370
    25
100
AcDbLine
 10
209.8996986035
 20
149.0834397602
 30
0.0
 11
209.8996986035
 21
117.5834397602
 31
0.0
  0
LINE
  5
8B
330
1F
100
AcDbEntity
  8
0
  6
Continuous
 62
     7
370
    25
100
AcDbLine
 10
209.8996986035
 20
180.5834397602
 30
0.0
 11
209.8996986035
 21
149.0834397602
 31
0.0
  0
LINE
  5
8C
330
1F
100
AcDbEntity
  8
0
  6
Continuous
 62
     1
370
    25
100
AcDbLine
 10
67.3996986035
 20
117.5834397602
 30
0.0
 11
130.3996986035
 21
117.5834397602
 31
0.0
  0
LINE
  5
8D
330
1F
100
AcDbEntity
  8
0
  6
Continuous
 62
     1
370
    25
100
AcDbLine
 10
130.3996986035
 20
180.5834397602
 30
0.0
 11
130.3996986035
 21
117.5834397602
 31
0.0
  0
LINE
  5
8E
330
1F
100
AcDbEntity
  8
0
  6
Continuous
 62
     7
370
    25
100
AcDbLine
 10
-84.8858593175
 20
149.0834397602
 30
0.0
 11
-84.8858593175
 21
117.5834397602
 31
0.0
  0
LINE
  5
8F
330
1F
100
AcDbEntity
  8
0
  6
Continuous
 62
     7
370
    25
100
AcDbLine
 10
-21.8858593175
 20
117.5834397602
 30
0.0
 11
-21.8858593175
 21
149.0834397602
 31
0.0
  0
LINE
  5
90
330
1F
100
AcDbEntity
  8
0
  6
Continuous
 62
     7
370
    25
100
AcDbLine
 10
-84.8858593175
 20
117.5834397602
 30
0.0
 11
-84.8858593175
 21
38.0834397602
 31
0.0
  0
LINE
  5
91
330
1F
100
AcDbEntity
  8
0
  6
Continuous
 62
     7
370
    25
100
AcDbLine
 10
-21.8858593175
 20
38.0834397602
 30
0.0
 11
-21.8858593175
 21
117.5834397602
 31
0.0
  0
CIRCLE
  5
92
330
1F
100
AcDbEntity
  8
0
  6
Continuous
 62
     7
370
    25
100
AcDbCircle
 10
-53.3858593175
 20
149.0834397602
 30
0.0
 40
31.50000000000001
  0
CIRCLE
  5
93
330
1F
100
AcDbEntity
  8
0
  6
Continuous
 62
     7
370
    25
100
AcDbCircle
 10
-53.3858593175
 20
149.0834397602
 30
0.0
 40
27.70000000000001
  0
LINE
  5
94
330
1F
100
AcDbEntity
  8
0
  6
Continuous
 62
     7
370
    25
100
AcDbLine
 10
-84.8858593175
 20
38.0834397602
 30
0.0
 11
-21.8858593175
 21
38.0834397602
 31
0.0
  0
LINE
  5
95
330
1F
100
AcDbEntity
  8
0
  6
Continuous
 62
     1
370
    25
100
AcDbLine
 10
-53.3858593175
 20
117.5834397602
 30
0.0
 11
-21.8858593175
 21
117.5834397602
 31
0.0
  0
LINE
  5
96
330
1F
100
AcDbEntity
  8
0
  6
Continuous
 62
     1
370
    25
100
AcDbLine
 10
-84.8858593175
 20
117.5834397602
 30
0.0
 11
-53.3858593175
 21
117.5834397602
 31
0.0
  0
INSERT
  5
A2
330
1F
100
AcDbEntity
  8
FORMAT
 62
     7
100
AcDbBlockReference
  2
SW_CENTERMARKSYMBOL_0
 10
-53.3858593175
 20
149.0834397602
 30
0.0
  0
LINE
  5
A3
330
1F
100
AcDbEntity
  8
0
  6
Continuous
 62
     7
370
    25
100
AcDbLine
 10
209.8996986035
 20
307.9793414992
 30
0.0
 11
130.3996986035
 21
307.9793414992
 31
0.0
  0
LINE
  5
A4
330
1F
100
AcDbEntity
  8
0
  6
Continuous
 62
     7
370
    25
100
AcDbLine
 10
130.3996986035
 20
244.9793414992
 30
0.0
 11
209.8996986035
 21
244.9793414992
 31
0.0
  0
LINE
  5
A5
330
1F
100
AcDbEntity
  8
0
  6
Continuous
 62
     7
370
    25
100
AcDbLine
 10
130.3996986035
 20
307.9793414992
 30
0.0
 11
98.8996986035
 21
307.9793414992
 31
0.0
  0
LINE
  5
A6
330
1F
100
AcDbEntity
  8
0
  6
Continuous
 62
     7
370
    25
100
AcDbLine
 10
98.8996986035
 20
244.9793414992
 30
0.0
 11
130.3996986035
 21
244.9793414992
 31
0.0
  0
CIRCLE
  5
A7
330
1F
100
AcDbEntity
  8
0
  6
Continuous
 62
     7
370
    25
100
AcDbCircle
 10
98.8996986035
 20
276.4793414992
 30
0.0
 40
27.69999999999999
  0
CIRCLE
  5
A8
330
1F
100
AcDbEntity
  8
0
  6
Continuous
 62
     7
370
    25
100
AcDbCircle
 10
98.8996986035
 20
276.4793414992
 30
0.0
 40
31.5
  0
LINE
  5
A9
330
1F
100
AcDbEntity
  8
0
  6
Continuous
 62
     7
370
    25
100
AcDbLine
 10
209.8996986035
 20
307.9793414992
 30
0.0
 11
209.8996986035
 21
244.9793414992
 31
0.0
  0
LINE
  5
AA
330
1F
100
AcDbEntity
  8
0
  6
Continuous
 62
     1
370
    25
100
AcDbLine
 10
130.3996986035
 20
276.4793414992
 30
0.0
 11
130.3996986035
 21
244.9793414992
 31
0.0
  0
LINE
  5
AB
330
1F
100
AcDbEntity
  8
0
  6
Continuous
 62
     1
370
    25
100
AcDbLine
 10
130.3996986035
 20
307.9793414992
 30
0.0
 11
130.3996986035
 21
276.4793414992
 31
0.0
  0
INSERT
  5
B7
330
1F
100
AcDbEntity
  8
FORMAT
 62
     7
100
AcDbBlockReference
  2
SW_CENTERMARKSYMBOL_1
 10
98.8996986035
 20
276.4793414992
 30
0.0
  0
LINE
  5
B8
330
1F
100
AcDbEntity
  8
0
  6
Continuous
 62
     7
370
    25
100
AcDbLine
 10
293.9691550226
 20
117.5834397602
 30
0.0
 11
293.9691550226
 21
38.0834397602
 31
0.0
  0
LINE
  5
B9
330
1F
100
AcDbEntity
  8
0
  6
Continuous
 62
     7
370
    25
100
AcDbLine
 10
356.9691550226
 20
38.0834397602
 30
0.0
 11
356.9691550226
 21
117.5834397602
 31
0.0
  0
LINE
  5
BA
330
1F
100
AcDbEntity
  8
0
  6
Continuous
 62
     7
370
    25
100
AcDbLine
 10
356.9691550226
 20
117.5834397602
 30
0.0
 11
356.9691550226
 21
149.0834397602
 31
0.0
  0
LINE
  5
BB
330
1F
100
AcDbEntity
  8
0
  6
Continuous
 62
     7
370
    25
100
AcDbLine
 10
293.9691550226
 20
149.0834397602
 30
0.0
 11
293.9691550226
 21
117.5834397602
 31
0.0
  0
LINE
  5
BC
330
1F
100
AcDbEntity
  8
0
  6
Continuous
 62
     7
370
    25
100
AcDbLine
 10
293.9691550226
 20
38.0834397602
 30
0.0
 11
356.9691550226
 21
38.0834397602
 31
0.0
  0
ARC
  5
BD
330
1F
100
AcDbEntity
  8
0
  6
Continuous
 62
     7
370
    25
100
AcDbCircle
 10
325.4691550226
 20
149.0834397602
 30
0.0
 40
31.49999999999994
100
AcDbArc
 50
0.0
 51
180.0
  0
LINE
  5
BE
330
1F
100
AcDbEntity
  8
0
  6
Continuous
 62
     1
370
    25
100
AcDbLine
 10
293.9691550226
 20
117.5834397602
 30
0.0
 11
356.9691550226
 21
117.5834397602
 31
0.0
  0
INSERT
  5
CA
330
1F
100
AcDbEntity
  8
FORMAT
 62
     7
100
AcDbBlockReference
  2
SW_CENTERMARKSYMBOL_2
 10
325.4691550226
 20
149.0834397602
 30
0.0
  0
LINE
  5
CB
330
1F
100
AcDbEntity
  8
0
  6
Continuous
 62
     7
370
    25
100
AcDbLine
 10
98.8996986035
 20
-109.3117954877
 30
0.0
 11
130.3996986035
 21
-109.3117954877
 31
0.0
  0
LINE
  5
CC
330
1F
100
AcDbEntity
  8
0
  6
Continuous
 62
     7
370
    25
100
AcDbLine
 10
130.3996986035
 20
-46.3117954877
 30
0.0
 11
98.8996986035
 21
-46.3117954877
 31
0.0
  0
LINE
  5
CD
330
1F
100
AcDbEntity
  8
0
  6
Continuous
 62
     7
370
    25
100
AcDbLine
 10
209.8996986035
 20
-46.3117954877
 30
0.0
 11
130.3996986035
 21
-46.3117954877
 31
0.0
  0
LINE
  5
CE
330
1F
100
AcDbEntity
  8
0
  6
Continuous
 62
     7
370
    25
100
AcDbLine
 10
130.3996986035
 20
-109.3117954877
 30
0.0
 11
209.8996986035
 21
-109.3117954877
 31
0.0
  0
ARC
  5
CF
330
1F
100
AcDbEntity
  8
0
  6
Continuous
 62
     7
370
    25
100
AcDbCircle
 10
98.8996986035
 20
-77.8117954877
 30
0.0
 40
31.49999999999996
100
AcDbArc
 50
90.0
 51
270.0
  0
LINE
  5
D0
330
1F
100
AcDbEntity
  8
0
  6
Continuous
 62
     7
370
    25
100
AcDbLine
 10
209.8996986035
 20
-46.3117954877
 30
0.0
 11
209.8996986035
 21
-109.3117954877
 31
0.0
  0
LINE
  5
D1
330
1F
100
AcDbEntity
  8
0
  6
Continuous
 62
     1
370
    25
100
AcDbLine
 10
130.3996986035
 20
-46.3117954877
 30
0.0
 11
130.3996986035
 21
-109.3117954877
 31
0.0
  0
INSERT
  5
DD
330
1F
100
AcDbEntity
  8
FORMAT
 62
     7
100
AcDbBlockReference
  2
SW_CENTERMARKSYMBOL_3
 10
98.8996986035
 20
-77.8117954877
 30
0.0
  0
LINE
  5
DE
330
1F
100
AcDbEntity
  8
0
  6
Continuous
 62
     7
370
    25
100
AcDbLine
 10
356.2859923593
 20
8.2026856116
 30
0.0
 11
300.071003255
 21
-24.2495368334
 31
0.0
  0
LINE
  5
DF
330
1F
100
AcDbEntity
  8
0
  6
Continuous
 62
     7
370
    25
100
AcDbLine
 10
331.568443333
 20
-78.8106151633
 30
0.0
 11
387.7834324373
 21
-46.3583927184
 31
0.0
  0
LINE
  5
E0
330
1F
100
AcDbEntity
  8
0
  6
Continuous
 62
     7
370
    25
100
AcDbLine
 10
262.0458596866
 20
-90.109539334
 30
0.0
 11
262.0458596866
 21
-155.0245338789
 31
0.0
  0
LINE
  5
E1
330
1F
100
AcDbEntity
  8
0
  6
Continuous
 62
     7
370
    25
100
AcDbLine
 10
325.0458596866
 20
-155.0245338789
 30
0.0
 11
325.0458596866
 21
-90.109539334
 31
0.0
  0
SPLINE
  5
E2
330
1F
100
AcDbEntity
  8
0
  6
Continuous
 62
     7
370
    25
100
AcDbSpline
210
0.0
220
0.0
230
1.0
 70
     8
 71
     3
 72
    36
 73
    32
 74
     0
 42
0.00000001
 43
0.00000001
 40
0.0
 40
0.0
 40
0.0
 40
0.0
 40
0.0232193139996928
 40
0.0588940541911187
 40
0.094667887046144
 40
0.1306258186871056
 40
0.1666897849654274
 40
0.2027746434499226
 40
0.2388278156585633
 40
0.2748152000293498
 40
0.3107179705863187
 40
0.3465307899781351
 40
0.3822594272454626
 40
0.4179183218054577
 40
0.4535283858501725
 40
0.4891151513729349
 40
0.5247072479031158
 40
0.5603331461830806
 40
0.5960157412464533
 40
0.6317861151350305
 40
0.667674075357868
 40
0.7037067396085509
 40
0.739906772198828
 40
0.7762901612090152
 40
0.812863491719577
 40
0.8496208034220103
 40
0.8865403475881668
 40
0.9235818736889233
 40
0.9606700792210707
 40
0.9949367553338911
 40
0.9999999999999999
 40
0.9999999999999999
 40
0.9999999999999999
 40
0.9999999999999999
 10
300.071003254975
 20
-24.2495368333588
 30
0.0
 10
299.5590088713606
 20
-24.55104205168852
 30
0.0
 10
298.2603733916672
 20
-25.31578749883863
 30
0.0
 10
296.2194888619065
 20
-26.6417707784463
 30
0.0
 10
293.955775313026
 20
-28.24431109390014
 30
0.0
 10
291.7413777295734
 20
-29.95552734518718
 30
0.0
 10
289.5792091232013
 20
-31.76883612479394
 30
0.0
 10
287.4760562388249
 20
-33.6775557387487
 30
0.0
 10
285.4372630207286
 20
-35.67427578205474
 30
0.0
 10
283.4668821735158
 20
-37.75246767566063
 30
0.0
 10
281.5680529362389
 20
-39.90610368714055
 30
0.0
 10
279.7432633304521
 20
-42.12975075934669
 30
0.0
 10
277.9945361743196
 20
-44.418552142704
 30
0.0
 10
276.3236125190284
 20
-46.76818731695553
 30
0.0
 10
274.7321047835654
 20
-49.17480413886041
 30
0.0
 10
273.2216203469521
 20
-51.63494614783519
 30
0.0
 10
271.7938847815147
 20
-54.14543363446271
 30
0.0
 10
270.4508880783404
 20
-56.70313914370355
 30
0.0
 10
269.1948071629142
 20
-59.3051103108006
 30
0.0
 10
268.028033221354
 20
-61.94855948154163
 30
0.0
 10
266.9531700378114
 20
-64.63095092968915
 30
0.0
 10
265.9731813120459
 20
-67.34969476211678
 30
0.0
 10
265.0914256644836
 20
-70.10200752248622
 30
0.0
 10
264.3116730195518
 20
-72.88473428354924
 30
0.0
 10
263.6381010253269
 20
-75.69412790486093
 30
0.0
 10
263.0752135758919
 20
-78.5255986864244
 30
0.0
 10
262.6278155483883
 20
-81.373439918702
 30
0.0
 10
262.300496247878
 20
-84.23025895840344
 30
0.0
 10
262.1036357731037
 20
-87.01540388557575
 30
0.0
 10
262.0481735989998
 20
-88.97425657820193
 30
0.0
 10
262.0461235989649
 20
-89.98005511493601
 30
0.0
 10
262.0458596866168
 20
-90.10953933395908
 30
0.0
  0
SPLINE
  5
E3
330
1F
100
AcDbEntity
  8
0
  6
Continuous
 62
     7
370
    25
100
AcDbSpline
210
0.0
220
0.0
230
1.0
 70
     8
 71
     3
 72
    31
 73
    27
 74
     0
 42
0.00000001
 43
0.00000001
 40
0.0
 40
0.0
 40
0.0
 40
0.0
 40
0.0268354710233222
 40
0.0717304019004096
 40
0.1151914544976678
 40
0.1576851191276936
 40
0.1996190995141794
 40
0.2413326027579313
 40
0.28308930789662
 40
0.3250542337913807
 40
0.367312263050898
 40
0.4099218214454515
 40
0.4528774290087718
 40
0.4961238192868632
 40
0.5395729144202709
 40
0.5831079264161204
 40
0.6266149716428501
 40
0.6700363873549546
 40
0.7133693360545024
 40
0.7566828246135053
 40
0.8001305559008798
 40
0.8439080138702203
 40
0.8882924126437126
 40
0.9336708819389848
 40
0.9805057520169587
 40
1.0
 40
1.0
 40
1.0
 40
1.0
 10
325.0460882205152
 20
-90.12520652640112
 30
0.0
 10
325.0459831282268
 20
-90.12743022339919
 30
0.0
 10
325.0457022197204
 20
-90.13337409817738
 30
0.0
 10
325.0542046760191
 20
-90.01016584799787
 30
0.0
 10
325.0843453306047
 20
-89.77059379000441
 30
0.0
 10
325.1445425509979
 20
-89.41813837975364
 30
0.0
 10
325.2422881447068
 20
-88.96723378913359
 30
0.0
 10
325.3841011504587
 20
-88.42520436325778
 30
0.0
 10
325.5749503269324
 20
-87.80299691919458
 30
0.0
 10
325.8180443603657
 20
-87.11285589995943
 30
0.0
 10
326.1145609961552
 20
-86.36890329715611
 30
0.0
 10
326.4634986777659
 20
-85.5866370002615
 30
0.0
 10
326.8615674402786
 20
-84.7826337174731
 30
0.0
 10
327.3029880269551
 20
-83.97436756760169
 30
0.0
 10
327.7794658454889
 20
-83.17970716670196
 30
0.0
 10
328.2803426784633
 20
-82.41621039764762
 30
0.0
 10
328.7930529066008
 20
-81.70015758930232
 30
0.0
 10
329.3037188443949
 20
-81.04571632056097
 30
0.0
 10
329.797771073921
 20
-80.46435930786883
 30
0.0
 10
330.2603353558562
 20
-79.96468072023158
 30
0.0
 10
330.6767546819287
 20
-79.55227972034479
 30
0.0
 10
331.0321070754956
 20
-79.23021519892427
 30
0.0
 10
331.3149766485145
 20
-78.99691091417095
 30
0.0
 10
331.5048361278738
 20
-78.8542873739997
 30
0.0
 10
331.5971555001116
 20
-78.793625102784
 30
0.0
 10
331.5851119798848
 20
-78.80096643859848
 30
0.0
 10
331.5815723674679
 20
-78.80312407049648
 30
0.0
  0
LWPOLYLINE
  5
E4
330
1F
100
AcDbEntity
  8
0
  6
Continuous
 62
     7
370
    25
100
AcDbPolyline
 90
       93
 70
   128
 43
0.0
 10
349.7608487909
 20
-6.2194257922
 10
349.812774308
 20
-8.004667297
 10
349.9683087586
 20
-9.8415371077
 10
350.2267269691
 20
-11.7214708893
 10
350.5868240748
 20
-13.6357035228
 10
351.0469211365
 20
-15.5753099719
 10
351.6048729694
 20
-17.531246896
 10
352.2580781446
 20
-19.4943948143
 10
353.003491118
 20
-21.455600625
 10
353.8376364301
 20
-23.4057202812
 10
354.7566249105
 20
-25.3356614249
 10
355.7561718106
 20
-27.2364257796
 10
356.8316167815
 20
-29.0991511044
 10
357.9779456021
 20
-30.915152514
 10
359.1898135585
 20
-32.6759629715
 10
360.4615703627
 20
-34.3733727658
 10
361.7872864974
 20
-35.9994677888
 10
363.1607808621
 20
-37.5466664349
 10
364.5756495919
 20
-39.0077549498
 10
366.0252959159
 20
-40.3759210643
 10
367.5029609135
 20
-41.6447857566
 10
369.0017550285
 20
-42.8084329936
 10
370.5146901908
 20
-43.8614373147
 10
372.0347123983
 20
-44.7988891278
 10
373.5547346058
 20
-45.6164175997
 10
375.0676697682
 20
-46.3102110353
 10
376.5664638832
 20
-46.8770346494
 10
378.0441288808
 20
-47.3142456486
 10
379.4937752047
 20
-47.6198055534
 10
380.9086439346
 20
-47.7922897024
 10
382.2821382993
 20
-47.830893895
 10
383.607854434
 20
-47.7354381406
 10
384.8796112382
 20
-47.506367498
 10
386.0914791945
 20
-47.1447500002
 10
387.2378080152
 20
-46.6522716749
 10
388.313252986
 20
-46.0312286835
 10
389.3127998862
 20
-45.2845166151
 10
390.2317883666
 20
-44.4156169859
 10
391.0659336787
 20
-43.4285810073
 10
391.811346652
 20
-42.3280106965
 10
392.4645518272
 20
-41.1190374204
 10
393.0225036602
 20
-39.8072979705
 10
393.4826007219
 20
-38.3989082816
 10
393.8426978275
 20
-36.9004349166
 10
394.1011160381
 20
-35.31886445
 10
394.2566504886
 20
-33.6615708935
 10
394.3085760057
 20
-31.9362813146
 10
394.2566504886
 20
-30.1510398098
 10
394.1011160381
 20
-28.3141699991
 10
393.8426978275
 20
-26.4342362175
 10
393.4826007219
 20
-24.520003584
 10
393.0225036602
 20
-22.5803971349
 10
392.4645518272
 20
-20.6244602108
 10
391.811346652
 20
-18.6613122924
 10
391.0659336787
 20
-16.7001064818
 10
390.2317883666
 20
-14.7499868256
 10
389.3127998862
 20
-12.8200456819
 10
388.313252986
 20
-10.9192813272
 10
387.2378080152
 20
-9.0565560024
 10
386.0914791945
 20
-7.2405545928
 10
384.8796112382
 20
-5.4797441353
 10
383.607854434
 20
-3.782334341
 10
382.2821382993
 20
-2.156239318
 10
380.9086439346
 20
-0.6090406719
 10
379.4937752047
 20
0.852047843
 10
378.0441288808
 20
2.2202139576
 10
376.5664638832
 20
3.4890786498
 10
375.0676697682
 20
4.6527258868
 10
373.5547346058
 20
5.7057302079
 10
372.0347123983
 20
6.643182021
 10
370.5146901908
 20
7.4607104929
 10
369.0017550285
 20
8.1545039286
 10
367.5029609135
 20
8.7213275426
 10
366.0252959159
 20
9.1585385418
 10
364.5756495919
 20
9.4640984466
 10
363.1607808621
 20
9.6365825956
 10
361.7872864974
 20
9.6751867882
 10
360.4615703627
 20
9.5797310338
 10
359.1898135585
 20
9.3506603912
 10
357.9779456021
 20
8.9890428934
 10
356.8316167815
 20
8.4965645681
 10
355.7561718106
 20
7.8755215767
 10
354.7566249105
 20
7.1288095083
 10
353.8376364301
 20
6.2599098791
 10
353.003491118
 20
5.2728739005
 10
352.2580781446
 20
4.1723035897
 10
351.6048729694
 20
2.9633303136
 10
351.0469211365
 20
1.6515908637
 10
350.5868240748
 20
0.2432011748
 10
350.2267269691
 20
-1.2552721902
 10
349.9683087586
 20
-2.8368426568
 10
349.812774308
 20
-4.4941362133
 10
349.7608487909
 20
-6.2194257922
  0
LWPOLYLINE
  5
E5
330
1F
100
AcDbEntity
  8
0
  6
Continuous
 62
     7
370
    25
100
AcDbPolyline
 90
       88
 70
   128
 43
0.0
 10
352.4478545595
 20
-7.7706012047
 10
352.4989129631
 20
-6.1679994493
 10
352.6518219793
 20
-4.6327036955
 10
352.9057844111
 20
-3.1727182645
 10
353.2594762161
 20
-1.7956548442
 10
353.7110534089
 20
-0.5086928057
 10
354.2581616752
 20
0.6814582269
 10
354.8979486457
 20
1.7685933571
 10
355.6270787676
 20
2.7470447658
 10
356.4417506938
 20
3.6117112603
 10
357.3377171023
 20
4.35808487
 10
358.3103068391
 20
4.9822743484
 10
359.3544492715
 20
5.4810254607
 10
360.4647007244
 20
5.8517379494
 10
361.6352728609
 20
6.0924790913
 10
362.8600628598
 20
6.2019937736
 10
364.1326852332
 20
6.1797110374
 10
365.4465051174
 20
6.0257470545
 10
366.7946728637
 20
5.740904522
 10
368.1701597498
 20
5.3266684768
 10
369.565794624
 20
4.785198554
 10
370.9743012923
 20
4.1193177269
 10
372.3883364531
 20
3.3324975899
 10
373.8005279818
 20
2.4288402588
 10
375.2035133657
 20
1.4130569845
 10
376.5899780886
 20
0.2904435907
 10
377.9526937655
 20
-0.9331471361
 10
379.2845558277
 20
-2.2513359606
 10
380.5786205632
 20
-3.6572504565
 10
381.8281413178
 20
-5.1435608367
 10
383.0266036686
 20
-6.702518167
 10
384.167759388
 20
-8.3259947658
 10
385.2456590184
 20
-10.0055265779
 10
386.2546828903
 20
-11.7323573019
 10
387.1895704204
 20
-13.4974840422
 10
388.045447538
 20
-15.2917042452
 10
388.8178520961
 20
-17.1056636776
 10
389.5027571351
 20
-18.9299051948
 10
390.0965918771
 20
-20.7549180462
 10
390.5962603428
 20
-22.5711874599
 10
390.9991574922
 20
-24.3692442482
 10
391.3031828061
 20
-26.1397141755
 10
391.5067512373
 20
-27.8733668314
 10
391.6088014743
 20
-29.5611637537
 10
391.6088014743
 20
-31.1943055507
 10
391.5067512373
 20
-32.7642777774
 10
391.3031828061
 20
-34.2628953255
 10
390.9991574922
 20
-35.6823450971
 10
390.5962603428
 20
-37.0152267382
 10
390.0965918771
 20
-38.2545912211
 10
389.5027571351
 20
-39.3939770734
 10
388.8178520961
 20
-40.4274440647
 10
388.045447538
 20
-41.3496041767
 10
387.1895704204
 20
-42.1556496936
 10
386.2546828903
 20
-42.8413782673
 10
385.2456590184
 20
-43.4032148265
 10
384.167759388
 20
-43.8382302155
 10
383.0266036686
 20
-44.1441564656
 10
381.8281413178
 20
-44.3193986188
 10
380.5786205632
 20
-44.3630430439
 10
379.2845558277
 20
-44.2748621988
 10
377.9526937655
 20
-44.0553158179
 10
376.5899780886
 20
-43.7055485141
 10
375.2035133657
 20
-43.2273838123
 10
373.8005279818
 20
-42.6233146419
 10
372.3883364531
 20
-41.8964903397
 10
370.9743012923
 20
-41.0507002312
 10
369.565794624
 20
-40.0903538743
 10
368.1701597498
 20
-39.0204580702
 10
366.7946728637
 20
-37.8465907604
 10
365.4465051174
 20
-36.5748719454
 10
364.1326852332
 20
-35.2119317782
 10
362.8600628598
 20
-33.7648759978
 10
361.6352728609
 20
-32.241248883
 10
360.4647007244
 20
-30.6489939201
 10
359.3544492715
 20
-28.9964123892
 10
358.3103068391
 20
-27.2921200851
 10
357.3377171023
 20
-25.5450023989
 10
356.4417506938
 20
-23.7641679931
 10
355.6270787676
 20
-21.9589013137
 10
354.8979486457
 20
-20.1386141853
 10
354.2581616752
 20
-18.3127967422
 10
353.7110534089
 20
-16.4909679511
 10
353.2594762161
 20
-14.6826259836
 10
352.9057844111
 20
-12.8971986976
 10
352.6518219793
 20
-11.1439944841
 10
352.4989129631
 20
-9.4321537381
 10
352.4478545595
 20
-7.7706012047
  0
LWPOLYLINE
  5
E6
330
1F
100
AcDbEntity
  8
0
  6
Continuous
 62
     7
370
    25
100
AcDbPolyline
 90
       93
 70
   128
 43
0.0
 10
271.2719960792
 20
-142.1661061177
 10
272.8439438039
 20
-141.3185919381
 10
274.5124134167
 20
-140.5349811868
 10
276.2696257423
 20
-139.8189274188
 10
278.1073878455
 20
-139.1737692074
 10
280.0171312312
 20
-138.6025145778
 10
281.989951794
 20
-138.1078269829
 10
284.0166513339
 20
-137.6920128847
 10
286.0877804419
 20
-137.3570110003
 10
288.1936825582
 20
-137.1043832633
 10
290.3245389949
 20
-136.9353075407
 10
292.4704147158
 20
-136.8505721417
 10
294.6213046575
 20
-136.8505721417
 10
296.7671803783
 20
-136.9353075407
 10
298.898036815
 20
-137.1043832633
 10
301.0039389313
 20
-137.3570110003
 10
303.0750680394
 20
-137.6920128847
 10
305.1017675792
 20
-138.1078269829
 10
307.0745881421
 20
-138.6025145778
 10
308.9843315277
 20
-139.1737692074
 10
310.822093631
 20
-139.8189274188
 10
312.5793059565
 20
-140.5349811868
 10
314.2477755694
 20
-141.3185919381
 10
315.819723294
 20
-142.1661061177
 10
317.2878199844
 20
-143.0735722231
 10
318.6452206962
 20
-144.0367592286
 10
319.8855966006
 20
-145.0511763117
 10
321.0031644926
 20
-146.1120937916
 10
321.9927137548
 20
-147.2145651814
 10
322.8496306518
 20
-148.3534502505
 10
323.5699198413
 20
-149.5234389909
 10
324.1502230027
 20
-150.7190763752
 10
324.5878344947
 20
-151.9347877897
 10
324.8807139706
 20
-153.1649050269
 10
325.0274958912
 20
-154.4036927122
 10
325.0274958912
 20
-155.6453750456
 10
324.8807139706
 20
-156.8841627309
 10
324.5878344947
 20
-158.114279968
 10
324.1502230027
 20
-159.3299913826
 10
323.5699198413
 20
-160.5256287668
 10
322.8496306518
 20
-161.6956175073
 10
321.9927137548
 20
-162.8345025763
 10
321.0031644926
 20
-163.9369739661
 10
319.8855966006
 20
-164.9978914461
 10
318.6452206962
 20
-166.0123085291
 10
317.2878199844
 20
-166.9754955346
 10
315.819723294
 20
-167.8829616401
 10
314.2477755694
 20
-168.7304758196
 10
312.5793059565
 20
-169.5140865709
 10
310.822093631
 20
-170.2301403389
 10
308.9843315277
 20
-170.8752985504
 10
307.0745881421
 20
-171.44655318
 10
305.1017675792
 20
-171.9412407748
 10
303.0750680394
 20
-172.3570548731
 10
301.0039389313
 20
-172.6920567574
 10
298.898036815
 20
-172.9446844945
 10
296.7671803783
 20
-173.113760217
 10
294.6213046575
 20
-173.1984956161
 10
292.4704147158
 20
-173.1984956161
 10
290.3245389949
 20
-173.113760217
 10
288.1936825582
 20
-172.9446844945
 10
286.0877804419
 20
-172.6920567574
 10
284.0166513339
 20
-172.3570548731
 10
281.989951794
 20
-171.9412407748
 10
280.0171312312
 20
-171.44655318
 10
278.1073878455
 20
-170.8752985504
 10
276.2696257423
 20
-170.2301403389
 10
274.5124134167
 20
-169.5140865709
 10
272.8439438039
 20
-168.7304758196
 10
271.2719960792
 20
-167.8829616401
 10
269.8038993888
 20
-166.9754955346
 10
268.446498677
 20
-166.0123085291
 10
267.2061227726
 20
-164.9978914461
 10
266.0885548806
 20
-163.9369739661
 10
265.0990056184
 20
-162.8345025763
 10
264.2420887215
 20
-161.6956175073
 10
263.521799532
 20
-160.5256287668
 10
262.9414963706
 20
-159.3299913826
 10
262.5038848785
 20
-158.114279968
 10
262.2110054026
 20
-156.8841627309
 10
262.0642234821
 20
-155.6453750456
 10
262.0642234821
 20
-154.4036927122
 10
262.2110054026
 20
-153.1649050269
 10
262.5038848785
 20
-151.9347877897
 10
262.9414963706
 20
-150.7190763752
 10
263.521799532
 20
-149.5234389909
 10
264.2420887215
 20
-148.3534502505
 10
265.0990056184
 20
-147.2145651814
 10
266.0885548806
 20
-146.1120937916
 10
267.2061227726
 20
-145.0511763117
 10
268.446498677
 20
-144.0367592286
 10
269.8038993888
 20
-143.0735722231
 10
271.2719960792
 20
-142.1661061177
  0
LWPOLYLINE
  5
E7
330
1F
100
AcDbEntity
  8
0
  6
Continuous
 62
     7
370
    25
100
AcDbPolyline
 90
       88
 70
   128
 43
0.0
 10
273.9590018477
 20
-143.7172815301
 10
272.5967165466
 20
-144.5626628729
 10
271.3436503776
 20
-145.4625875669
 10
270.2063362474
 20
-146.4123638215
 10
269.1907035855
 20
-147.407039943
 10
268.3020474301
 20
-148.4414301507
 10
267.5450008231
 20
-149.510141613
 10
266.9235106549
 20
-150.6076025632
 10
266.4408170874
 20
-151.7280913481
 10
266.0994366614
 20
-152.865766258
 10
265.9011491764
 20
-154.0146959827
 10
265.8469884115
 20
-155.1688905346
 10
265.9372367358
 20
-156.3223324777
 10
266.1714236364
 20
-157.4690082999
 10
266.5483281713
 20
-158.6029397643
 10
267.0659853346
 20
-159.7182150773
 10
267.7216963017
 20
-160.8090197099
 10
268.5120424991
 20
-161.8696667119
 10
269.4329034279
 20
-162.8946263607
 10
270.4794781453
 20
-163.8785549915
 10
271.6463102956
 20
-164.816322856
 10
272.9273165561
 20
-165.7030408667
 10
274.3158183534
 20
-166.5340860865
 10
275.804576682
 20
-167.3051258304
 10
277.3858298453
 20
-168.0121402542
 10
279.0513339216
 20
-168.6514433121
 10
280.7924057437
 20
-169.219701974
 10
282.5999681693
 20
-169.7139536023
 10
284.464597405
 20
-170.1316213979
 10
286.3765721373
 20
-170.4705278343
 10
288.3259242152
 20
-170.7289060102
 10
290.3024906196
 20
-170.9054088616
 10
292.2959664486
 20
-170.9991161842
 10
294.2959586421
 20
-171.0095394315
 10
296.2920401671
 20
-170.9366242614
 10
298.2738043786
 20
-170.78075082
 10
300.2309192756
 20
-170.5427317591
 10
302.1531813674
 20
-170.223808
 10
304.0305688695
 20
-169.8256422634
 10
305.8532939526
 20
-169.3503104011
 10
307.6118537723
 20
-168.8002905734
 10
309.2970800119
 20
-168.178450329
 10
310.9001866821
 20
-167.4880316549
 10
312.412815927
 20
-166.7326340745
 10
313.8270815981
 20
-165.9161958809
 10
315.1356103692
 20
-165.0429736049
 10
316.331580177
 20
-164.117519823
 10
317.4087557888
 20
-163.1446594228
 10
318.3615213096
 20
-162.1294644479
 10
319.1849094614
 20
-161.0772276549
 10
319.8746274793
 20
-159.9934349192
 10
320.4270794932
 20
-158.8837366342
 10
320.839385274
 20
-157.753918253
 10
321.1093952503
 20
-156.6098701254
 10
321.235701715
 20
-155.4575567888
 10
321.2176461648
 20
-154.3029858711
 10
321.0553227329
 20
-153.1521767707
 10
320.7495776986
 20
-152.0111292733
 10
320.3020050748
 20
-150.8857922722
 10
319.7149382981
 20
-149.7820327535
 10
318.9914380627
 20
-148.7056052081
 10
318.1352763638
 20
-147.662121631
 10
317.1509168322
 20
-146.6570222622
 10
316.0434914626
 20
-145.6955472246
 10
314.8187738582
 20
-144.7827092037
 10
313.4831491294
 20
-143.9232673143
 10
312.0435806051
 20
-143.1217022885
 10
310.507573529
 20
-142.3821931152
 10
308.8831359309
 20
-141.7085952528
 10
307.1787368761
 20
-141.1044205286
 10
305.4032623122
 20
-140.57281883
 10
303.5659687414
 20
-140.1165616819
 10
301.6764349616
 20
-139.7380277979
 10
299.7445121271
 20
-139.4391906784
 10
297.780272389
 20
-139.2216083218
 10
295.7939563837
 20
-139.0864151018
 10
293.7959198432
 20
-139.0343158531
 10
291.7965796049
 20
-139.0655821971
 10
289.8063593029
 20
-139.1800511257
 10
287.8356350244
 20
-139.3771258508
 10
285.8946812132
 20
-139.655778916
 10
283.9936171038
 20
-140.0145575533
 10
282.1423539642
 20
-140.451591257
 10
280.3505434233
 20
-140.9646015358
 10
278.6275271514
 20
-141.5509137915
 10
276.9822881576
 20
-142.2074712636
 10
275.4234039563
 20
-142.9308509654
 10
273.9590018477
 20
-143.7172815301
  0
LWPOLYLINE
  5
E8
330
1F
100
AcDbEntity
  8
0
  6
Continuous
 62
     1
370
    25
100
AcDbPolyline
 90
       13
 70
   128
 43
0.0
 10
315.819723294
 20
-77.2511115728
 10
317.3397455015
 20
-78.0686400447
 10
318.8526806638
 20
-78.7624334803
 10
320.3514747788
 20
-79.3292570944
 10
321.8291397765
 20
-79.7664680936
 10
323.2787861004
 20
-80.0720279983
 10
324.6936548303
 20
-80.2445121474
 10
326.0671491949
 20
-80.28311634
 10
327.3928653297
 20
-80.1876605856
 10
328.6646221338
 20
-79.9585899429
 10
329.8764900902
 20
-79.5969724451
 10
331.0228189108
 20
-79.1044941199
 10
331.568443333
 20
-78.8106151633
  0
LWPOLYLINE
  5
E9
330
1F
100
AcDbEntity
  8
0
  6
Continuous
 62
     1
370
    25
100
AcDbPolyline
 90
       36
 70
   128
 43
0.0
 10
300.071003255
 20
-24.2495368334
 10
299.5411827063
 20
-24.5767008682
 10
298.5416358061
 20
-25.3234129367
 10
297.6226473257
 20
-26.1923125658
 10
296.7885020136
 20
-27.1793485445
 10
296.0430890403
 20
-28.2799188553
 10
295.3898838651
 20
-29.4888921314
 10
294.8319320322
 20
-30.8006315813
 10
294.3718349704
 20
-32.2090212702
 10
294.0117378648
 20
-33.7074946352
 10
293.7533196542
 20
-35.2890651017
 10
293.5977852037
 20
-36.9463586583
 10
293.5458596866
 20
-38.6716482371
 10
293.5977852037
 20
-40.4568897419
 10
293.7533196542
 20
-42.2937595527
 10
294.0117378648
 20
-44.1736933343
 10
294.3718349704
 20
-46.0879259678
 10
294.8319320322
 20
-48.0275324169
 10
295.3898838651
 20
-49.983469341
 10
296.0430890403
 20
-51.9466172593
 10
296.7885020136
 20
-53.90782307
 10
297.6226473257
 20
-55.8579427262
 10
298.5416358061
 20
-57.7878838699
 10
299.5411827063
 20
-59.6886482245
 10
300.6166276772
 20
-61.5513735493
 10
301.7629564978
 20
-63.3673749589
 10
302.9748244541
 20
-65.1281854165
 10
304.2465812583
 20
-66.8255952107
 10
305.572297393
 20
-68.4516902337
 10
306.9457917577
 20
-69.9988888798
 10
308.3606604876
 20
-71.4599773947
 10
309.8103068115
 20
-72.8281435093
 10
311.2879718092
 20
-74.0970082015
 10
312.7867659242
 20
-75.2606554385
 10
314.2997010865
 20
-76.3136597597
 10
315.819723294
 20
-77.2511115728
  0
LWPOLYLINE
  5
EA
330
1F
100
AcDbEntity
  8
0
  6
Continuous
 62
     1
370
    25
100
AcDbPolyline
 90
       13
 70
   128
 43
0.0
 10
315.819723294
 20
-77.2511115728
 10
317.2878199844
 20
-78.1585776782
 10
318.6452206962
 20
-79.1217646837
 10
319.8855966006
 20
-80.1361817668
 10
321.0031644926
 20
-81.1970992467
 10
321.9927137548
 20
-82.2995706365
 10
322.8496306518
 20
-83.4384557056
 10
323.5699198413
 20
-84.608444446
 10
324.1502230027
 20
-85.8040818302
 10
324.5878344947
 20
-87.0197932448
 10
324.8807139706
 20
-88.249910482
 10
325.0274958912
 20
-89.4886981673
 10
325.0458596866
 20
-90.109539334
  0
LWPOLYLINE
  5
EB
330
1F
100
AcDbEntity
  8
0
  6
Continuous
 62
     1
370
    25
100
AcDbPolyline
 90
       36
 70
   128
 43
0.0
 10
262.0458596866
 20
-90.109539334
 10
262.0642234821
 20
-89.4886981673
 10
262.2110054026
 20
-88.249910482
 10
262.5038848785
 20
-87.0197932448
 10
262.9414963706
 20
-85.8040818302
 10
263.521799532
 20
-84.608444446
 10
264.2420887215
 20
-83.4384557056
 10
265.0990056184
 20
-82.2995706365
 10
266.0885548806
 20
-81.1970992467
 10
267.2061227726
 20
-80.1361817668
 10
268.446498677
 20
-79.1217646837
 10
269.8038993888
 20
-78.1585776782
 10
271.2719960792
 20
-77.2511115728
 10
272.8439438039
 20
-76.4035973932
 10
274.5124134167
 20
-75.6199866419
 10
276.2696257423
 20
-74.9039328739
 10
278.1073878455
 20
-74.2587746624
 10
280.0171312312
 20
-73.6875200329
 10
281.989951794
 20
-73.192832438
 10
284.0166513339
 20
-72.7770183398
 10
286.0877804419
 20
-72.4420164554
 10
288.1936825582
 20
-72.1893887184
 10
290.3245389949
 20
-72.0203129958
 10
292.4704147158
 20
-71.9355775967
 10
294.6213046575
 20
-71.9355775967
 10
296.7671803783
 20
-72.0203129958
 10
298.898036815
 20
-72.1893887184
 10
301.0039389313
 20
-72.4420164554
 10
303.0750680394
 20
-72.7770183398
 10
305.1017675792
 20
-73.192832438
 10
307.0745881421
 20
-73.6875200329
 10
308.9843315277
 20
-74.2587746624
 10
310.822093631
 20
-74.9039328739
 10
312.5793059565
 20
-75.6199866419
 10
314.2477755694
 20
-76.4035973932
 10
315.819723294
 20
-77.2511115728
  0
ENDSEC
  0
SECTION
  2
OBJECTS
  0
DICTIONARY
  5
C
330
0
100
AcDbDictionary
281
     1
  3
ACAD_GROUP
350
D
  3
ACAD_LAYOUT
350
1A
  3
ACAD_MLINESTYLE
350
17
  3
ACAD_PLOTSETTINGS
350
19
  3
ACAD_PLOTSTYLENAME
350
E
  3
ACAD_SCALELIST
350
47
  3
DWGPROPS
350
EC
  0
DICTIONARY
  5
D
102
{ACAD_REACTORS
330
C
102
}
330
C
100
AcDbDictionary
281
     1
  0
DICTIONARY
  5
1A
102
{ACAD_REACTORS
330
C
102
}
330
C
100
AcDbDictionary
281
     1
  3
Layout1
350
1E
  3
Layout2
350
26
  3
Model
350
22
  0
DICTIONARY
  5
17
102
{ACAD_REACTORS
330
C
102
}
330
C
100
AcDbDictionary
281
     1
  3
Standard
350
18
  0
DICTIONARY
  5
19
102
{ACAD_REACTORS
330
C
102
}
330
C
100
AcDbDictionary
281
     1
  0
ACDBDICTIONARYWDFLT
  5
E
102
{ACAD_REACTORS
330
C
102
}
330
C
100
AcDbDictionary
281
     1
  3
Normal
350
F
100
AcDbDictionaryWithDefault
340
F
  0
DICTIONARY
  5
47
102
{ACAD_REACTORS
330
C
102
}
330
C
100
AcDbDictionary
281
     1
  3
A0
350
48
  3
A1
350
49
  3
A2
350
4A
  3
A3
350
4B
  3
A4
350
4C
  3
A5
350
4D
  3
A6
350
4E
  3
A7
350
4F
  3
A8
350
50
  3
A9
350
51
  3
B0
350
52
  3
B1
350
53
  3
B2
350
54
  3
B3
350
55
  3
B4
350
56
  3
B5
350
57
  3
B6
350
58
  3
B7
350
59
  3
B8
350
5A
  3
B9
350
5B
  3
C0
350
5C
  3
C1
350
5D
  3
C2
350
5E
  3
C3
350
5F
  3
C4
350
60
  3
C5
350
61
  3
C6
350
62
  3
C7
350
63
  3
C8
350
64
  3
C9
350
65
  3
D0
350
66
  3
D1
350
67
  3
D2
350
68
  0
XRECORD
  5
EC
102
{ACAD_REACTORS
330
C
102
}
330
C
100
AcDbXrecord
280
     1
  1
DWGPROPS COOKIE
  2

  3

  4

  6

  7

  8
b.kav
  9

300
=
301
=
302
=
303
=
304
=
305
=
306
=
307
=
308
=
309
=
 40
0.0
 41
2459935.574807419
 42
2459935.574807604
  1

 90
        0
  0
LAYOUT
  5
1E
102
{ACAD_REACTORS
330
1A
102
}
330
1A
100
AcDbPlotSettings
  1

  2
none_device
  4

  6

 40
0.0
 41
0.0
 42
0.0
 43
0.0
 44
0.0
 45
0.0
 46
0.0
 47
0.0
 48
0.0
 49
0.0
140
0.0
141
0.0
142
1.0
143
1.0
 70
   688
 72
     1
 73
     0
 74
     5
  7

 75
    16
147
1.0
148
0.0
149
0.0
100
AcDbLayout
  1
Layout1
 70
     1
 71
     1
 10
0.0
 20
0.0
 11
420.0
 21
297.0
 12
0.0
 22
0.0
 32
0.0
 14
1.0000000000E+20
 24
1.0000000000E+20
 34
1.0000000000E+20
 15
-1.0000000000E+20
 25
-1.0000000000E+20
 35
-1.0000000000E+20
146
0.0
 13
0.0
 23
0.0
 33
0.0
 16
1.0
 26
0.0
 36
0.0
 17
0.0
 27
1.0
 37
0.0
 76
     0
330
1B
  0
LAYOUT
  5
26
102
{ACAD_REACTORS
330
1A
102
}
330
1A
100
AcDbPlotSettings
  1

  2
none_device
  4

  6

 40
0.0
 41
0.0
 42
0.0
 43
0.0
 44
0.0
 45
0.0
 46
0.0
 47
0.0
 48
0.0
 49
0.0
140
0.0
141
0.0
142
1.0
143
1.0
 70
   688
 72
     1
 73
     0
 74
     5
  7

 75
    16
147
1.0
148
0.0
149
0.0
100
AcDbLayout
  1
Layout2
 70
     1
 71
     2
 10
0.0
 20
0.0
 11
0.0
 21
0.0
 12
0.0
 22
0.0
 32
0.0
 14
0.0
 24
0.0
 34
0.0
 15
0.0
 25
0.0
 35
0.0
146
0.0
 13
0.0
 23
0.0
 33
0.0
 16
1.0
 26
0.0
 36
0.0
 17
0.0
 27
1.0
 37
0.0
 76
     0
330
23
  0
LAYOUT
  5
22
102
{ACAD_REACTORS
330
1A
102
}
330
1A
100
AcDbPlotSettings
  1

  2
none_device
  4
Letter_(8.50_x_11.00_Inches)
  6

 40
6.35
 41
6.35
 42
6.35000508
 43
6.35000508
 44
215.9
 45
279.4
 46
0.0
 47
0.0
 48
0.0
 49
0.0
140
0.0
141
0.0
142
1.0
143
1.0
 70
  1712
 72
     1
 73
     0
 74
     0
  7

 75
     0
147
1.0
148
0.0
149
0.0
100
AcDbLayout
  1
Model
 70
     1
 71
     0
 10
0.0
 20
0.0
 11
279.4
 21
215.9
 12
0.0
 22
0.0
 32
0.0
 14
0.0
 24
0.0
 34
0.0
 15
279.4
 25
215.9
 35
0.0
146
0.0
 13
0.0
 23
0.0
 33
0.0
 16
1.0
 26
0.0
 36
0.0
 17
0.0
 27
1.0
 37
0.0
 76
     0
330
1F
331
29
  0
MLINESTYLE
  5
18
102
{ACAD_REACTORS
330
17
102
}
330
17
100
AcDbMlineStyle
  2
Standard
 70
     0
  3

 62
   256
 51
90.0
 52
90.0
 71
     2
 49
0.5
 62
   256
  6
BYLAYER
 49
-0.5
 62
   256
  6
BYLAYER
  0
ACDBPLACEHOLDER
  5
F
102
{ACAD_REACTORS
330
E
102
}
330
E
  0
SCALE
  5
48
102
{ACAD_REACTORS
330
47
102
}
330
47
100
AcDbScale
 70
     0
300
1:1
140
1.0
141
1.0
290
     1
  0
SCALE
  5
49
102
{ACAD_REACTORS
330
47
102
}
330
47
100
AcDbScale
 70
     0
300
1:2
140
1.0
141
2.0
290
     0
  0
SCALE
  5
4A
102
{ACAD_REACTORS
330
47
102
}
330
47
100
AcDbScale
 70
     0
300
1:4
140
1.0
141
4.0
290
     0
  0
SCALE
  5
4B
102
{ACAD_REACTORS
330
47
102
}
330
47
100
AcDbScale
 70
     0
300
1:5
140
1.0
141
5.0
290
     0
  0
SCALE
  5
4C
102
{ACAD_REACTORS
330
47
102
}
330
47
100
AcDbScale
 70
     0
300
1:8
140
1.0
141
8.0
290
     0
  0
SCALE
  5
4D
102
{ACAD_REACTORS
330
47
102
}
330
47
100
AcDbScale
 70
     0
300
1:10
140
1.0
141
10.0
290
     0
  0
SCALE
  5
4E
102
{ACAD_REACTORS
330
47
102
}
330
47
100
AcDbScale
 70
     0
300
1:16
140
1.0
141
16.0
290
     0
  0
SCALE
  5
4F
102
{ACAD_REACTORS
330
47
102
}
330
47
100
AcDbScale
 70
     0
300
1:20
140
1.0
141
20.0
290
     0
  0
SCALE
  5
50
102
{ACAD_REACTORS
330
47
102
}
330
47
100
AcDbScale
 70
     0
300
1:30
140
1.0
141
30.0
290
     0
  0
SCALE
  5
51
102
{ACAD_REACTORS
330
47
102
}
330
47
100
AcDbScale
 70
     0
300
1:40
140
1.0
141
40.0
290
     0
  0
SCALE
  5
52
102
{ACAD_REACTORS
330
47
102
}
330
47
100
AcDbScale
 70
     0
300
1:50
140
1.0
141
50.0
290
     0
  0
SCALE
  5
53
102
{ACAD_REACTORS
330
47
102
}
330
47
100
AcDbScale
 70
     0
300
1:100
140
1.0
141
100.0
290
     0
  0
SCALE
  5
54
102
{ACAD_REACTORS
330
47
102
}
330
47
100
AcDbScale
 70
     0
300
2:1
140
2.0
141
1.0
290
     0
  0
SCALE
  5
55
102
{ACAD_REACTORS
330
47
102
}
330
47
100
AcDbScale
 70
     0
300
4:1
140
4.0
141
1.0
290
     0
  0
SCALE
  5
56
102
{ACAD_REACTORS
330
47
102
}
330
47
100
AcDbScale
 70
     0
300
8:1
140
8.0
141
1.0
290
     0
  0
SCALE
  5
57
102
{ACAD_REACTORS
330
47
102
}
330
47
100
AcDbScale
 70
     0
300
10:1
140
10.0
141
1.0
290
     0
  0
SCALE
  5
58
102
{ACAD_REACTORS
330
47
102
}
330
47
100
AcDbScale
 70
     0
300
100:1
140
100.0
141
1.0
290
     0
  0
SCALE
  5
59
102
{ACAD_REACTORS
330
47
102
}
330
47
100
AcDbScale
 70
     0
300
1/128" = 1'-0"
140
0.0078125
141
12.0
290
     0
  0
SCALE
  5
5A
102
{ACAD_REACTORS
330
47
102
}
330
47
100
AcDbScale
 70
     0
300
1/64" = 1'-0"
140
0.015625
141
12.0
290
     0
  0
SCALE
  5
5B
102
{ACAD_REACTORS
330
47
102
}
330
47
100
AcDbScale
 70
     0
300
1/32" = 1'-0"
140
0.03125
141
12.0
290
     0
  0
SCALE
  5
5C
102
{ACAD_REACTORS
330
47
102
}
330
47
100
AcDbScale
 70
     0
300
1/16" = 1'-0"
140
0.0625
141
12.0
290
     0
  0
SCALE
  5
5D
102
{ACAD_REACTORS
330
47
102
}
330
47
100
AcDbScale
 70
     0
300
3/32" = 1'-0"
140
0.09375
141
12.0
290
     0
  0
SCALE
  5
5E
102
{ACAD_REACTORS
330
47
102
}
330
47
100
AcDbScale
 70
     0
300
1/8" = 1'-0"
140
0.125
141
12.0
290
     0
  0
SCALE
  5
5F
102
{ACAD_REACTORS
330
47
102
}
330
47
100
AcDbScale
 70
     0
300
3/16" = 1'-0"
140
0.1875
141
12.0
290
     0
  0
SCALE
  5
60
102
{ACAD_REACTORS
330
47
102
}
330
47
100
AcDbScale
 70
     0
300
1/4" = 1'-0"
140
0.25
141
12.0
290
     0
  0
SCALE
  5
61
102
{ACAD_REACTORS
330
47
102
}
330
47
100
AcDbScale
 70
     0
300
3/8" = 1'-0"
140
0.375
141
12.0
290
     0
  0
SCALE
  5
62
102
{ACAD_REACTORS
330
47
102
}
330
47
100
AcDbScale
 70
     0
300
1/2" = 1'-0"
140
0.5
141
12.0
290
     0
  0
SCALE
  5
63
102
{ACAD_REACTORS
330
47
102
}
330
47
100
AcDbScale
 70
     0
300
3/4" = 1'-0"
140
0.75
141
12.0
290
     0
  0
SCALE
  5
64
102
{ACAD_REACTORS
330
47
102
}
330
47
100
AcDbScale
 70
     0
300
1" = 1'-0"
140
1.0
141
12.0
290
     0
  0
SCALE
  5
65
102
{ACAD_REACTORS
330
47
102
}
330
47
100
AcDbScale
 70
     0
300
1-1/2" = 1'-0"
140
1.5
141
12.0
290
     0
  0
SCALE
  5
66
102
{ACAD_REACTORS
330
47
102
}
330
47
100
AcDbScale
 70
     0
300
3" = 1'-0"
140
3.0
141
12.0
290
     0
  0
SCALE
  5
67
102
{ACAD_REACTORS
330
47
102
}
330
47
100
AcDbScale
 70
     0
300
6" = 1'-0"
140
6.0
141
12.0
290
     0
  0
SCALE
  5
68
102
{ACAD_REACTORS
330
47
102
}
330
47
100
AcDbScale
 70
     0
300
1'-0" = 1'-0"
140
12.0
141
12.0
290
     0
  0
ENDSEC
  0
EOF
